  0
SECTION
  2
HEADER
  9
$ACADVER
  1
AC1014
  9
$ACADMAINTVER
 70
     0
  9
$DWGCODEPAGE
  3
ANSI_1252
  9
$INSBASE
 10
0.00000000
 20
0.00000000
 30
0.00000000
  9
$EXTMIN
 10
0.25306601
 20
-1.37422284
 30
-0.00000000
  9
$EXTMAX
 10
10.09925858
 20
-0.24998918
 30
0.00000000
  9
$LIMMIN
 10
0.25306601
 20
-1.37422284
  9
$LIMMAX
 10
10.09925858
 20
-0.24998918
  9
$ORTHOMODE
 70
     0
  9
$REGENMODE
 70
     1
  9
$FILLMODE
 70
     1
  9
$QTEXTMODE
 70
     0
  9
$MIRRTEXT
 70
     1
  9
$DRAGMODE
 70
     2
  9
$LTSCALE
 40
1.00000000
  9
$OSMODE
 70
     0
  9
$ATTMODE
 70
     1
  9
$TEXTSIZE
 40
2.50000000
  9
$TRACEWID
 40
1.00000000
  9
$TEXTSTYLE
  7
STANDARD
  9
$CLAYER
  8
0
  9
$CELTYPE
  6
BYLAYER
  9
$CECOLOR
 62
   256
  9
$CELTSCALE
 40
1.00000000
  9
$DELOBJ
 70
     1
  9
$DISPSILH
 70
     0
  9
$DIMSCALE
 40
1.00000000
  9
$DIMASZ
 40
2.50000000
  9
$DIMEXO
 40
0.62500000
  9
$DIMDLI
 40
3.75000000
  9
$DIMRND
 40
0.00000000
  9
$DIMDLE
 40
0.00000000
  9
$DIMEXE
 40
1.25000000
  9
$DIMTP
 40
0.00000000
  9
$DIMTM
 40
0.00000000
  9
$DIMTXT
 40
2.50000000
  9
$DIMCEN
 40
2.50000000
  9
$DIMTSZ
 40
0.00000000
  9
$DIMTOL
 70
     0
  9
$DIMLIM
 70
     0
  9
$DIMTIH
 70
     0
  9
$DIMTOH
 70
     0
  9
$DIMSE1
 70
     0
  9
$DIMSE2
 70
     0
  9
$DIMTAD
 70
     1
  9
$DIMZIN
 70
     8
  9
$DIMBLK
  1

  9
$DIMASO
 70
     1
  9
$DIMSHO
 70
     1
  9
$DIMPOST
  1

  9
$DIMAPOST
  1

  9
$DIMALT
 70
     0
  9
$DIMALTD
 70
     4
  9
$DIMALTF
 40
0.03940000
  9
$DIMLFAC
 40
1.00000000
  9
$DIMTOFL
 70
     1
  9
$DIMTVP
 40
0.00000000
  9
$DIMTIX
 70
     0
  9
$DIMSOXD
 70
     0
  9
$DIMSAH
 70
     0
  9
$DIMBLK1
  1

  9
$DIMBLK2
  1

  9
$DIMSTYLE
  2
STANDARD
  9
$DIMCLRD
 70
     0
  9
$DIMCLRE
 70
     0
  9
$DIMCLRT
 70
     0
  9
$DIMTFAC
 40
1.00000000
  9
$DIMGAP
 40
0.62500000
  9
$DIMJUST
 70
     0
  9
$DIMSD1
 70
     0
  9
$DIMSD2
 70
     0
  9
$DIMTOLJ
 70
     1
  9
$DIMTZIN
 70
     0
  9
$DIMALTZ
 70
     0
  9
$DIMALTTZ
 70
     0
  9
$DIMFIT
 70
     3
  9
$DIMUPT
 70
     0
  9
$DIMUNIT
 70
     8
  9
$DIMDEC
 70
     4
  9
$DIMTDEC
 70
     4
  9
$DIMALTU
 70
     8
  9
$DIMALTTD
 70
     4
  9
$DIMTXSTY
  7
STANDARD
  9
$DIMAUNIT
 70
     0
  9
$LUNITS
 70
     2
  9
$LUPREC
 70
     4
  9
$SKETCHINC
 40
1.00000000
  9
$FILLETRAD
 40
10.00000000
  9
$AUNITS
 70
     0
  9
$AUPREC
 70
     0
  9
$MENU
  1
.
  9
$ELEVATION
 40
0.00000000
  9
$PELEVATION
 40
0.00000000
  9
$THICKNESS
 40
0.00000000
  9
$LIMCHECK
 70
     0
  9
$BLIPMODE
 70
     0
  9
$CHAMFERA
 40
10.00000000
  9
$CHAMFERB
 40
10.00000000
  9
$CHAMFERC
 40
20.00000000
  9
$CHAMFERD
 40
0.00000000
  9
$SKPOLY
 70
     0
  9
$TDCREATE
 40
2452537.17378676
  9
$TDUPDATE
 40
2452537.17436757
  9
$TDINDWG
 40
0.00058081
  9
$TDUSRTIMER
 40
0.00058081
  9
$USRTIMER
 70
     1
  9
$ANGBASE
 50
0.00000000
  9
$ANGDIR
 70
     0
  9
$PDMODE
 70
     0
  9
$PDSIZE
 40
0.00000000
  9
$PLINEWID
 40
0.00000000
  9
$COORDS
 70
     1
  9
$SPLFRAME
 70
     0
  9
$SPLINETYPE
 70
     6
  9
$SPLINESEGS
 70
     8
  9
$ATTDIA
 70
     0
  9
$ATTREQ
 70
     1
  9
$HANDLING
 70
     1
  9
$HANDSEED
  5
26
  9
$SURFTAB1
 70
     6
  9
$SURFTAB2
 70
     6
  9
$SURFTYPE
 70
     6
  9
$SURFU
 70
     6
  9
$SURFV
 70
     6
  9
$UCSNAME
  2

  9
$UCSORG
 10
0.00000000
 20
0.00000000
 30
0.00000000
  9
$UCSXDIR
 10
1.00000000
 20
0.00000000
 30
0.00000000
  9
$UCSYDIR
 10
0.00000000
 20
1.00000000
 30
0.00000000
  9
$PUCSNAME
  2

  9
$PUCSORG
 10
0.00000000
 20
0.00000000
 30
0.00000000
  9
$PUCSXDIR
 10
1.00000000
 20
0.00000000
 30
0.00000000
  9
$PUCSYDIR
 10
0.00000000
 20
1.00000000
 30
0.00000000
  9
$USERI1
 70
     0
  9
$USERI2
 70
     0
  9
$USERI3
 70
     0
  9
$USERI4
 70
     0
  9
$USERI5
 70
     0
  9
$USERR1
 40
0.00000000
  9
$USERR2
 40
0.00000000
  9
$USERR3
 40
0.00000000
  9
$USERR4
 40
0.00000000
  9
$USERR5
 40
0.00000000
  9
$WORLDVIEW
 70
     1
  9
$SHADEDGE
 70
     3
  9
$SHADEDIF
 70
    70
  9
$TILEMODE
 70
     1
  9
$MAXACTVP
 70
    48
  9
$PINSBASE
 10
0.00000000
 20
0.00000000
 30
0.00000000
  9
$PLIMCHECK
 70
     0
  9
$PEXTMIN
 10
100000000000000000000.00000000
 20
100000000000000000000.00000000
 30
100000000000000000000.00000000
  9
$PEXTMAX
 10
-100000000000000000000.00000000
 20
-100000000000000000000.00000000
 30
-100000000000000000000.00000000
  9
$PLIMMIN
 10
0.00000000
 20
0.00000000
  9
$PLIMMAX
 10
420.00000000
 20
297.00000000
  9
$UNITMODE
 70
     0
  9
$VISRETAIN
 70
     1
  9
$PLINEGEN
 70
     0
  9
$PSLTSCALE
 70
     1
  9
$TREEDEPTH
 70
  3020
  9
$PICKSTYLE
 70
     1
  9
$CMLSTYLE
  2
STANDARD
  9
$CMLJUST
 70
     0
  9
$CMLSCALE
 40
20.00000000
  9
$PROXYGRAPHICS
 70
     1
  9
$MEASUREMENT
 70
     1
  0
ENDSEC
  0
SECTION
  2
TABLES
  0
TABLE
  2
VPORT
  5
200
100
AcDbSymbolTable
 70
     0
  0
ENDTAB
  0
TABLE
  2
LTYPE
  5
201
100
AcDbSymbolTable
 70
    25
  0
LTYPE
  5
202
100
AcDbSymbolTableRecord
100
AcDbLinetypeTableRecord
  2
BYBLOCK
 70
     0
  3

 72
    65
 73
     0
 40
0.00000000
  0
LTYPE
  5
203
100
AcDbSymbolTableRecord
100
AcDbLinetypeTableRecord
  2
BYLAYER
 70
     0
  3

 72
    65
 73
     0
 40
0.00000000
  0
LTYPE
  5
204
100
AcDbSymbolTableRecord
100
AcDbLinetypeTableRecord
  2
CONTINUOUS
 70
    64
  3
Solid line
 72
    64
 73
     0
 40
0.00000000
  0
LTYPE
  5
205
100
AcDbSymbolTableRecord
100
AcDbLinetypeTableRecord
  2
DASHDOT
 70
    64
  3
__ . __ . __ . __ . __ . __ . __ . __ . __ . __
 72
    65
 73
     4
 40
1.00000000
 49
0.50000000
 74
     0
 49
-0.25000000
 74
     0
 49
0.00000000
 74
     0
 49
-0.25000000
 74
     0
  0
LTYPE
  5
206
100
AcDbSymbolTableRecord
100
AcDbLinetypeTableRecord
  2
DASHED
 70
    64
  3
__ __ __ __ __ __ __ __ __ __ __ __ __ __ __ __
 72
    65
 73
     2
 40
0.75000000
 49
0.50000000
 74
     0
 49
-0.25000000
 74
     0
  0
LTYPE
  5
207
100
AcDbSymbolTableRecord
100
AcDbLinetypeTableRecord
  2
DIVIDE
 70
    64
  3
____ . . ____ . . ____ . . ____ . . ____ . . __
 72
    65
 73
     6
 40
1.25000000
 49
0.50000000
 74
     0
 49
-0.25000000
 74
     0
 49
0.00000000
 74
     0
 49
-0.25000000
 74
     0
 49
0.00000000
 74
     0
 49
-0.25000000
 74
     0
  0
LTYPE
  5
208
100
AcDbSymbolTableRecord
100
AcDbLinetypeTableRecord
  2
DOT
 70
    64
  3
. . . . . . . . . . . . . . . . . . . . . . . . 
 72
    65
 73
     2
 40
0.25000000
 49
0.00000000
 74
     0
 49
-0.25000000
 74
     0
  0
ENDTAB
  0
TABLE
  2
LAYER
  5
209
100
AcDbSymbolTable
 70
     3
  0
LAYER
  5
20a
100
AcDbSymbolTableRecord
100
AcDbLayerTableRecord
  2
0
 70
     0
 62
     7
  6
CONTINUOUS
  0
LAYER
  5
20b
100
AcDbSymbolTableRecord
100
AcDbLayerTableRecord
  2
top-big
 70
     0
 62
     7
  6
CONTINUOUS
  0
LAYER
  5
20c
100
AcDbSymbolTableRecord
100
AcDbLayerTableRecord
  2
bottom-big
 70
     0
 62
     7
  6
CONTINUOUS
  0
ENDTAB
  0
TABLE
  2
STYLE
  5
20d
100
AcDbSymbolTable
 70
     1
  0
STYLE
  5
20e
100
AcDbSymbolTableRecord
100
AcDbTextStyleTableRecord
  2
STANDARD
 70
     0
 40
0.00000000
 41
1.00000000
 50
0.00000000
 71
     0
 42
2.50000000
  3
txt
  4

  0
ENDTAB
  0
TABLE
  2
VIEW
  5
20f
100
AcDbSymbolTable
 70
     0
  0
ENDTAB
  0
TABLE
  2
UCS
  5
210
100
AcDbSymbolTable
 70
     0
  0
ENDTAB
  0
TABLE
  2
APPID
  5
211
100
AcDbSymbolTable
 70
     1
  0
APPID
  5
212
100
AcDbSymbolTableRecord
100
AcDbRegAppTableRecord
  2
ACAD
 70
     0
  0
ENDTAB
  0
TABLE
  2
DIMSTYLE
  5
213
100
AcDbSymbolTable
 70
     1
  0
DIMSTYLE
105
214
100
AcDbSymbolTableRecord
100
AcDbDimStyleTableRecord
  2
STANDARD
 70
     1
  3

  4

  5

  6

  7

 40
1.00000000
 41
0.18000000
 42
0.06250000
 43
0.38000000
 44
0.18000000
 45
0.00000000
 46
0.00000000
 47
0.00000000
 48
0.00000000
140
3.04800000
141
1.52400000
142
0.00000000
143
1.00000000
144
1.00000000
145
0.00000000
146
1.00000000
147
1.52400000
 71
     0
 72
     0
 73
     1
 74
     1
 75
     0
 76
     0
 77
     0
 78
     0
170
     0
171
     2
172
     0
173
     0
174
     0
175
     0
176
     0
177
     0
178
     0
  0
ENDTAB
  0
TABLE
  2
BLOCK_RECORD
  5
215
100
AcDbSymbolTable
 70
     2
  0
BLOCK_RECORD
  5
216
100
AcDbSymbolTableRecord
100
AcDbBlockTableRecord
  2
*MODEL_SPACE
  0
BLOCK_RECORD
  5
217
100
AcDbSymbolTableRecord
100
AcDbBlockTableRecord
  2
*PAPER_SPACE
  0
ENDTAB
  0
ENDSEC
  0
SECTION
  2
BLOCKS
  0
BLOCK
  5
218
100
AcDbEntity
  8
0
100
AcDbBlockBegin
  2
*MODEL_SPACE
 70
     0
 10
0.00000000
 20
0.00000000
 30
0.00000000
  3
*MODEL_SPACE
  1

  0
ENDBLK
  5
219
100
AcDbEntity
  8
0
100
AcDbBlockEnd
  0
BLOCK
  5
21a
100
AcDbEntity
 67
     1
  8
0
100
AcDbBlockBegin
  2
*PAPER_SPACE
 70
     0
 10
0.00000000
 20
0.00000000
 30
0.00000000
  3
*PAPER_SPACE
  1

  0
ENDBLK
  5
21b
100
AcDbEntity
 67
     1
  8
0
100
AcDbBlockEnd
  0
ENDSEC
  0
SECTION
  2
ENTITIES
  0
LINE
  5
21c
100
AcDbEntity
  8
top-big
100
AcDbLine
 62
    90
  6
CONTINUOUS
 10
4.92542681
 20
-0.38274936
 30
0.00000000
 11
5.12843573
 21
-0.40884639
 31
0.00000000
  0
ARC
  5
21d
100
AcDbEntity
  8
top-big
100
AcDbCircle
 62
    90
  6
CONTINUOUS
 10
-0.98714932
 20
-32.62393478
 30
0.00000000
 40
32.48018124
210
0.00000000
220
0.00000000
230
-1.00000000
100
AcDbArc
 50
97.32526324
 51
101.02562849
  0
LINE
  5
21e
100
AcDbEntity
  8
top-big
100
AcDbLine
 62
    90
  6
CONTINUOUS
 10
7.19892096
 20
-0.74328130
 30
0.00000000
 11
7.62127073
 21
-0.82557385
 31
0.00000000
  0
LINE
  5
21f
100
AcDbEntity
  8
top-big
100
AcDbLine
 62
    90
  6
CONTINUOUS
 10
7.62127073
 20
-0.82557385
 30
0.00000000
 11
9.28604591
 21
-1.16374973
 31
0.00000000
  0
LINE
  5
220
100
AcDbEntity
  8
top-big
100
AcDbLine
 62
    90
  6
CONTINUOUS
 10
9.28604591
 20
-1.16374973
 30
0.00000000
 11
10.09716048
 21
-1.33526355
 31
0.00000000
  0
LINE
  5
221
100
AcDbEntity
  8
bottom-big
100
AcDbLine
 62
    90
  6
CONTINUOUS
 10
10.09916378
 20
-1.35415148
 30
0.00000000
 11
10.09716048
 21
-1.33526355
 31
0.00000000
  0
ARC
  5
222
100
AcDbEntity
  8
bottom-big
100
AcDbCircle
 62
    90
  6
CONTINUOUS
 10
-10.08226281
 20
-1.35594405
 30
0.00000000
 40
0.01699577
210
0.00000000
220
0.00000000
230
-1.00000000
100
AcDbArc
 50
173.94569201
 51
232.92625191
  0
ARC
  5
223
100
AcDbEntity
  8
bottom-big
100
AcDbCircle
 62
    90
  6
CONTINUOUS
 10
-10.07843646
 20
-1.35087989
 30
0.00000000
 40
0.02334295
210
0.00000000
220
0.00000000
230
-1.00000000
100
AcDbArc
 50
232.92625191
 51
284.46883375
  0
LINE
  5
224
100
AcDbEntity
  8
bottom-big
100
AcDbLine
 62
    90
  6
CONTINUOUS
 10
10.07260415
 20
-1.37348248
 30
0.00000000
 11
10.05766098
 21
-1.36962659
 31
0.00000000
  0
ARC
  5
225
100
AcDbEntity
  8
bottom-big
100
AcDbCircle
 62
    90
  6
CONTINUOUS
 10
-10.12933177
 20
-1.09187303
 30
0.00000000
 40
0.28685142
210
0.00000000
220
0.00000000
230
-1.00000000
100
AcDbArc
 50
284.46883375
 51
291.11016565
  0
ARC
  5
226
100
AcDbEntity
  8
bottom-big
100
AcDbCircle
 62
    90
  6
CONTINUOUS
 10
9.92270562
 20
-1.62707448
 30
0.00000000
 40
0.28685142
210
0.00000000
220
0.00000000
230
1.00000000
100
AcDbArc
 50
68.88983435
 51
81.64687169
  0
LINE
  5
227
100
AcDbEntity
  8
bottom-big
100
AcDbLine
 62
    90
  6
CONTINUOUS
 10
9.96437758
 20
-1.34326612
 30
0.00000000
 11
9.81098910
 21
-1.32826176
 31
0.00000000
  0
LINE
  5
228
100
AcDbEntity
  8
bottom-big
100
AcDbLine
 62
    90
  6
CONTINUOUS
 10
9.81098910
 20
-1.32826176
 30
0.00000000
 11
9.49714295
 21
-1.29018342
 31
0.00000000
  0
LINE
  5
229
100
AcDbEntity
  8
bottom-big
100
AcDbLine
 62
    90
  6
CONTINUOUS
 10
9.49714295
 20
-1.29018342
 30
0.00000000
 11
9.38906181
 21
-1.27700764
 31
0.00000000
  0
ARC
  5
22a
100
AcDbEntity
  8
bottom-big
100
AcDbCircle
 62
    90
  6
CONTINUOUS
 10
-12.52979698
 20
24.48649338
 30
0.00000000
 40
25.95423284
210
0.00000000
220
0.00000000
230
-1.00000000
100
AcDbArc
 50
276.95042605
 51
278.10516928
  0
LINE
  5
22b
100
AcDbEntity
  8
bottom-big
100
AcDbLine
 62
    90
  6
CONTINUOUS
 10
8.87049536
 20
-1.20848111
 30
0.00000000
 11
8.55790818
 21
-1.16396459
 31
0.00000000
  0
ARC
  5
22c
100
AcDbEntity
  8
bottom-big
100
AcDbCircle
 62
    90
  6
CONTINUOUS
 10
4.58552972
 20
-29.05730974
 30
0.00000000
 40
28.17478472
210
0.00000000
220
0.00000000
230
1.00000000
100
AcDbArc
 50
81.89483072
 51
83.82297224
  0
ARC
  5
22d
100
AcDbEntity
  8
bottom-big
100
AcDbCircle
 62
    90
  6
CONTINUOUS
 10
3.40160808
 20
-39.99634133
 30
0.00000000
 40
39.17769718
210
0.00000000
220
0.00000000
230
1.00000000
100
AcDbArc
 50
83.82297224
 51
87.47000811
  0
LINE
  5
22e
100
AcDbEntity
  8
bottom-big
100
AcDbLine
 62
    90
  6
CONTINUOUS
 10
5.13100333
 20
-0.85683254
 30
0.00000000
 11
5.09685987
 21
-0.85532389
 31
0.00000000
  0
LINE
  5
22f
100
AcDbEntity
  8
bottom-big
100
AcDbLine
 62
    90
  6
CONTINUOUS
 10
5.09685987
 20
-0.85532389
 30
0.00000000
 11
5.02349598
 21
-0.85208228
 31
0.00000000
  0
ARC
  5
230
100
AcDbEntity
  8
bottom-big
100
AcDbCircle
 62
    90
  6
CONTINUOUS
 10
3.97379245
 20
-24.60887267
 30
0.00000000
 40
23.77996987
210
0.00000000
220
0.00000000
230
1.00000000
100
AcDbArc
 50
87.47000811
 51
90.33837330
  0
LINE
  5
231
100
AcDbEntity
  8
bottom-big
100
AcDbLine
 62
    90
  6
CONTINUOUS
 10
3.83335523
 20
-0.82931749
 30
0.00000000
 11
3.19894718
 21
-0.83306418
 31
0.00000000
  0
ARC
  5
232
100
AcDbEntity
  8
bottom-big
100
AcDbCircle
 62
    90
  6
CONTINUOUS
 10
3.24367107
 20
-8.40594393
 30
0.00000000
 40
7.57301182
210
0.00000000
220
0.00000000
230
1.00000000
100
AcDbArc
 50
90.33837330
 51
95.10207461
  0
ARC
  5
233
100
AcDbEntity
  8
bottom-big
100
AcDbCircle
 62
    90
  6
CONTINUOUS
 10
3.12844690
 20
-7.11541027
 30
0.00000000
 40
6.27734452
210
0.00000000
220
0.00000000
230
1.00000000
100
AcDbArc
 50
95.10207461
 51
105.15150783
  0
LINE
  5
234
100
AcDbEntity
  8
bottom-big
100
AcDbLine
 62
    90
  6
CONTINUOUS
 10
1.48772265
 20
-1.05627847
 30
0.00000000
 11
1.33056811
 21
-1.09883362
 31
0.00000000
  0
ARC
  5
235
100
AcDbEntity
  8
bottom-big
100
AcDbCircle
 62
    90
  6
CONTINUOUS
 10
4.34996763
 20
-12.24936033
 30
0.00000000
 40
11.55210021
210
0.00000000
220
0.00000000
230
1.00000000
100
AcDbArc
 50
105.15150783
 51
106.51119637
  0
LINE
  5
236
100
AcDbEntity
  8
bottom-big
100
AcDbLine
 62
    90
  6
CONTINUOUS
 10
1.06682949
 20
-1.17362002
 30
0.00000000
 11
1.02672720
 21
-1.18550739
 31
0.00000000
  0
LINE
  5
237
100
AcDbEntity
  8
bottom-big
100
AcDbLine
 62
    90
  6
CONTINUOUS
 10
1.02672720
 20
-1.18550739
 30
0.00000000
 11
0.85355537
 21
-1.23684003
 31
0.00000000
  0
ARC
  5
238
100
AcDbEntity
  8
bottom-big
100
AcDbCircle
 62
    90
  6
CONTINUOUS
 10
0.74839583
 20
4.16737834
 30
0.00000000
 40
5.63665006
210
0.00000000
220
0.00000000
230
-1.00000000
100
AcDbArc
 50
253.48880363
 51
254.86473714
  0
LINE
  5
239
100
AcDbEntity
  8
bottom-big
100
AcDbLine
 62
    90
  6
CONTINUOUS
 10
0.72332596
 20
-1.27374827
 30
0.00000000
 11
0.44091182
 21
-1.35013595
 31
0.00000000
  0
ARC
  5
23a
100
AcDbEntity
  8
bottom-big
100
AcDbCircle
 62
    90
  6
CONTINUOUS
 10
-0.36003180
 20
-1.05111309
 30
0.00000000
 40
0.30976806
210
0.00000000
220
0.00000000
230
-1.00000000
100
AcDbArc
 50
254.86473714
 51
259.18494608
  0
ARC
  5
23b
100
AcDbEntity
  8
bottom-big
100
AcDbCircle
 62
    90
  6
CONTINUOUS
 10
-0.39206570
 20
-1.21880133
 30
0.00000000
 40
0.13904748
210
0.00000000
220
0.00000000
230
-1.00000000
100
AcDbArc
 50
259.18494608
 51
282.91952468
  0
LINE
  5
23c
100
AcDbEntity
  8
bottom-big
100
AcDbLine
 62
    90
  6
CONTINUOUS
 10
0.36097715
 20
-1.35432883
 30
0.00000000
 11
0.34012591
 21
-1.34954578
 31
0.00000000
  0
LINE
  5
23d
100
AcDbEntity
  8
bottom-big
100
AcDbLine
 62
    90
  6
CONTINUOUS
 10
0.34012591
 20
-1.34954578
 30
0.00000000
 11
0.32052688
 21
-1.34504997
 31
0.00000000
  0
ARC
  5
23e
100
AcDbEntity
  8
bottom-big
100
AcDbCircle
 62
    90
  6
CONTINUOUS
 10
-0.34849036
 20
-1.22314588
 30
0.00000000
 40
0.12507024
210
0.00000000
220
0.00000000
230
-1.00000000
100
AcDbArc
 50
282.91952468
 51
310.03871710
  0
ARC
  5
23f
100
AcDbEntity
  8
bottom-big
100
AcDbCircle
 62
    90
  6
CONTINUOUS
 10
-0.29502353
 20
-1.28677780
 30
0.00000000
 40
0.04195752
210
0.00000000
220
0.00000000
230
-1.00000000
100
AcDbArc
 50
310.03871710
 51
348.79893458
  0
ARC
  5
240
100
AcDbEntity
  8
top-big
100
AcDbCircle
 62
    90
  6
CONTINUOUS
 10
-0.29502353
 20
-1.28677780
 30
0.00000000
 40
0.04195752
210
0.00000000
220
0.00000000
230
-1.00000000
100
AcDbArc
 50
348.79893458
 51
387.55915205
  0
LINE
  5
241
100
AcDbEntity
  8
top-big
100
AcDbLine
 62
    90
  6
CONTINUOUS
 10
0.25782678
 20
-1.26736557
 30
0.00000000
 11
0.26857445
 21
-1.24677142
 31
0.00000000
  0
ARC
  5
242
100
AcDbEntity
  8
top-big
100
AcDbCircle
 62
    90
  6
CONTINUOUS
 10
-0.43270898
 20
-1.33242994
 30
0.00000000
 40
0.18514191
210
0.00000000
220
0.00000000
230
-1.00000000
100
AcDbArc
 50
27.55915205
 51
45.19315533
  0
LINE
  5
243
100
AcDbEntity
  8
top-big
100
AcDbLine
 62
    90
  6
CONTINUOUS
 10
0.30223597
 20
-1.20107424
 30
0.00000000
 11
0.31798053
 21
-1.18543548
 31
0.00000000
  0
LINE
  5
244
100
AcDbEntity
  8
top-big
100
AcDbLine
 62
    90
  6
CONTINUOUS
 10
0.31798053
 20
-1.18543548
 30
0.00000000
 11
0.42616073
 21
-1.07041021
 31
0.00000000
  0
ARC
  5
245
100
AcDbEntity
  8
top-big
100
AcDbCircle
 62
    90
  6
CONTINUOUS
 10
-0.81463329
 20
-1.44274229
 30
0.00000000
 40
0.53809118
210
0.00000000
220
0.00000000
230
-1.00000000
100
AcDbArc
 50
43.78465131
 51
53.23895667
  0
LINE
  5
246
100
AcDbEntity
  8
top-big
100
AcDbLine
 62
    90
  6
CONTINUOUS
 10
0.49259701
 20
-1.01165675
 30
0.00000000
 11
0.54811886
 21
-0.97017994
 31
0.00000000
  0
ARC
  5
247
100
AcDbEntity
  8
top-big
100
AcDbCircle
 62
    90
  6
CONTINUOUS
 10
-2.49575814
 20
-3.57733692
 30
0.00000000
 40
3.25431503
210
0.00000000
220
0.00000000
230
-1.00000000
100
AcDbArc
 50
53.23895667
 51
58.79025379
  0
LINE
  5
248
100
AcDbEntity
  8
top-big
100
AcDbLine
 62
    90
  6
CONTINUOUS
 10
0.80946158
 20
-0.79399896
 30
0.00000000
 11
0.81005660
 21
-0.79363846
 31
0.00000000
  0
LINE
  5
249
100
AcDbEntity
  8
top-big
100
AcDbLine
 62
    90
  6
CONTINUOUS
 10
0.81005660
 20
-0.79363846
 30
0.00000000
 11
0.88601852
 21
-0.74761663
 31
0.00000000
  0
ARC
  5
24a
100
AcDbEntity
  8
top-big
100
AcDbCircle
 62
    90
  6
CONTINUOUS
 10
-2.38021321
 20
-3.21387842
 30
0.00000000
 40
2.88358544
210
0.00000000
220
0.00000000
230
-1.00000000
100
AcDbArc
 50
58.79025379
 51
69.57694032
  0
ARC
  5
24b
100
AcDbEntity
  8
top-big
100
AcDbCircle
 62
    90
  6
CONTINUOUS
 10
-2.75804303
 20
-4.22858204
 30
0.00000000
 40
3.96634987
210
0.00000000
220
0.00000000
230
-1.00000000
100
AcDbArc
 50
69.57694032
 51
86.47935857
  0
LINE
  5
24c
100
AcDbEntity
  8
top-big
100
AcDbLine
 62
    90
  6
CONTINUOUS
 10
2.51447693
 20
-0.26971770
 30
0.00000000
 11
2.60805167
 21
-0.26396059
 31
0.00000000
  0
ARC
  5
24d
100
AcDbEntity
  8
top-big
100
AcDbCircle
 62
    90
  6
CONTINUOUS
 10
-3.06265682
 20
-7.65300223
 30
0.00000000
 40
7.40301305
210
0.00000000
220
0.00000000
230
-1.00000000
100
AcDbArc
 50
86.47935857
 51
93.32472592
  0
LINE
  5
24e
100
AcDbEntity
  8
top-big
100
AcDbLine
 62
    90
  6
CONTINUOUS
 10
3.49199348
 20
-0.26244933
 30
0.00000000
 11
3.87093249
 21
-0.28446289
 31
0.00000000
  0
ARC
  5
24f
100
AcDbEntity
  8
top-big
100
AcDbCircle
 62
    90
  6
CONTINUOUS
 10
-2.99109072
 20
-15.42995973
 30
0.00000000
 40
15.17103147
210
0.00000000
220
0.00000000
230
-1.00000000
100
AcDbArc
 50
93.32472592
 51
97.32526324
  0
POINT
  5
250
100
AcDbEntity
  8
0
100
AcDbPoint
 62
   251
 10
10.09716048
 20
-1.33526355
 30
0.00000000
  0
ENDSEC
  0
SECTION
  2
OBJECTS
  0
DICTIONARY
  5
c
100
AcDbDictionary
  3
ACAD_GROUP
350
d
  3
ACAD_MLINESTYLE
350
1b
  0
DICTIONARY
  5
d
102
{ACAD_REACTORS
330
c
102
}
100
AcDbDictionary
  0
DICTIONARY
  5
1b
102
{ACAD_REACTORS
330
c
102
}
100
AcDbDictionary
  3
STANDARD
350
1c
  0
MLINESTYLE
  5
1c
102
{ACAD_REACTORS
330
1b
102
}
100
AcDbMlineStyle
  2
STANDARD
 70
     0
  3

 62
   256
 51
90.00000000
 52
90.00000000
 71
     2
 49
0.50000000
 62
   256
  6
BYLAYER
 49
-0.50000000
 62
   256
  6
BYLAYER
  0
ENDSEC
  0
EOF
