  0
SECTION
  2
HEADER
  9
$ACADVER
  1
AC1014
  9
$ACADMAINTVER
 70
     0
  9
$DWGCODEPAGE
  3
ANSI_1252
  9
$INSBASE
 10
0.00000000
 20
0.00000000
 30
0.00000000
  9
$EXTMIN
 10
4.27661830
 20
-2.36551004
 30
-0.00000000
  9
$EXTMAX
 10
10.10023693
 20
-1.33526355
 30
0.00000000
  9
$LIMMIN
 10
4.27661830
 20
-2.36551004
  9
$LIMMAX
 10
10.10023693
 20
-1.33526355
  9
$ORTHOMODE
 70
     0
  9
$REGENMODE
 70
     1
  9
$FILLMODE
 70
     1
  9
$QTEXTMODE
 70
     0
  9
$MIRRTEXT
 70
     1
  9
$DRAGMODE
 70
     2
  9
$LTSCALE
 40
1.00000000
  9
$OSMODE
 70
     0
  9
$ATTMODE
 70
     1
  9
$TEXTSIZE
 40
2.50000000
  9
$TRACEWID
 40
1.00000000
  9
$TEXTSTYLE
  7
STANDARD
  9
$CLAYER
  8
0
  9
$CELTYPE
  6
BYLAYER
  9
$CECOLOR
 62
   256
  9
$CELTSCALE
 40
1.00000000
  9
$DELOBJ
 70
     1
  9
$DISPSILH
 70
     0
  9
$DIMSCALE
 40
1.00000000
  9
$DIMASZ
 40
2.50000000
  9
$DIMEXO
 40
0.62500000
  9
$DIMDLI
 40
3.75000000
  9
$DIMRND
 40
0.00000000
  9
$DIMDLE
 40
0.00000000
  9
$DIMEXE
 40
1.25000000
  9
$DIMTP
 40
0.00000000
  9
$DIMTM
 40
0.00000000
  9
$DIMTXT
 40
2.50000000
  9
$DIMCEN
 40
2.50000000
  9
$DIMTSZ
 40
0.00000000
  9
$DIMTOL
 70
     0
  9
$DIMLIM
 70
     0
  9
$DIMTIH
 70
     0
  9
$DIMTOH
 70
     0
  9
$DIMSE1
 70
     0
  9
$DIMSE2
 70
     0
  9
$DIMTAD
 70
     1
  9
$DIMZIN
 70
     8
  9
$DIMBLK
  1

  9
$DIMASO
 70
     1
  9
$DIMSHO
 70
     1
  9
$DIMPOST
  1

  9
$DIMAPOST
  1

  9
$DIMALT
 70
     0
  9
$DIMALTD
 70
     4
  9
$DIMALTF
 40
0.03940000
  9
$DIMLFAC
 40
1.00000000
  9
$DIMTOFL
 70
     1
  9
$DIMTVP
 40
0.00000000
  9
$DIMTIX
 70
     0
  9
$DIMSOXD
 70
     0
  9
$DIMSAH
 70
     0
  9
$DIMBLK1
  1

  9
$DIMBLK2
  1

  9
$DIMSTYLE
  2
STANDARD
  9
$DIMCLRD
 70
     0
  9
$DIMCLRE
 70
     0
  9
$DIMCLRT
 70
     0
  9
$DIMTFAC
 40
1.00000000
  9
$DIMGAP
 40
0.62500000
  9
$DIMJUST
 70
     0
  9
$DIMSD1
 70
     0
  9
$DIMSD2
 70
     0
  9
$DIMTOLJ
 70
     1
  9
$DIMTZIN
 70
     0
  9
$DIMALTZ
 70
     0
  9
$DIMALTTZ
 70
     0
  9
$DIMFIT
 70
     3
  9
$DIMUPT
 70
     0
  9
$DIMUNIT
 70
     8
  9
$DIMDEC
 70
     4
  9
$DIMTDEC
 70
     4
  9
$DIMALTU
 70
     8
  9
$DIMALTTD
 70
     4
  9
$DIMTXSTY
  7
STANDARD
  9
$DIMAUNIT
 70
     0
  9
$LUNITS
 70
     2
  9
$LUPREC
 70
     4
  9
$SKETCHINC
 40
1.00000000
  9
$FILLETRAD
 40
10.00000000
  9
$AUNITS
 70
     0
  9
$AUPREC
 70
     0
  9
$MENU
  1
.
  9
$ELEVATION
 40
0.00000000
  9
$PELEVATION
 40
0.00000000
  9
$THICKNESS
 40
0.00000000
  9
$LIMCHECK
 70
     0
  9
$BLIPMODE
 70
     0
  9
$CHAMFERA
 40
10.00000000
  9
$CHAMFERB
 40
10.00000000
  9
$CHAMFERC
 40
20.00000000
  9
$CHAMFERD
 40
0.00000000
  9
$SKPOLY
 70
     0
  9
$TDCREATE
 40
2452537.17378676
  9
$TDUPDATE
 40
2452537.17436757
  9
$TDINDWG
 40
0.00058081
  9
$TDUSRTIMER
 40
0.00058081
  9
$USRTIMER
 70
     1
  9
$ANGBASE
 50
0.00000000
  9
$ANGDIR
 70
     0
  9
$PDMODE
 70
     0
  9
$PDSIZE
 40
0.00000000
  9
$PLINEWID
 40
0.00000000
  9
$COORDS
 70
     1
  9
$SPLFRAME
 70
     0
  9
$SPLINETYPE
 70
     6
  9
$SPLINESEGS
 70
     8
  9
$ATTDIA
 70
     0
  9
$ATTREQ
 70
     1
  9
$HANDLING
 70
     1
  9
$HANDSEED
  5
26
  9
$SURFTAB1
 70
     6
  9
$SURFTAB2
 70
     6
  9
$SURFTYPE
 70
     6
  9
$SURFU
 70
     6
  9
$SURFV
 70
     6
  9
$UCSNAME
  2

  9
$UCSORG
 10
0.00000000
 20
0.00000000
 30
0.00000000
  9
$UCSXDIR
 10
1.00000000
 20
0.00000000
 30
0.00000000
  9
$UCSYDIR
 10
0.00000000
 20
1.00000000
 30
0.00000000
  9
$PUCSNAME
  2

  9
$PUCSORG
 10
0.00000000
 20
0.00000000
 30
0.00000000
  9
$PUCSXDIR
 10
1.00000000
 20
0.00000000
 30
0.00000000
  9
$PUCSYDIR
 10
0.00000000
 20
1.00000000
 30
0.00000000
  9
$USERI1
 70
     0
  9
$USERI2
 70
     0
  9
$USERI3
 70
     0
  9
$USERI4
 70
     0
  9
$USERI5
 70
     0
  9
$USERR1
 40
0.00000000
  9
$USERR2
 40
0.00000000
  9
$USERR3
 40
0.00000000
  9
$USERR4
 40
0.00000000
  9
$USERR5
 40
0.00000000
  9
$WORLDVIEW
 70
     1
  9
$SHADEDGE
 70
     3
  9
$SHADEDIF
 70
    70
  9
$TILEMODE
 70
     1
  9
$MAXACTVP
 70
    48
  9
$PINSBASE
 10
0.00000000
 20
0.00000000
 30
0.00000000
  9
$PLIMCHECK
 70
     0
  9
$PEXTMIN
 10
100000000000000000000.00000000
 20
100000000000000000000.00000000
 30
100000000000000000000.00000000
  9
$PEXTMAX
 10
-100000000000000000000.00000000
 20
-100000000000000000000.00000000
 30
-100000000000000000000.00000000
  9
$PLIMMIN
 10
0.00000000
 20
0.00000000
  9
$PLIMMAX
 10
420.00000000
 20
297.00000000
  9
$UNITMODE
 70
     0
  9
$VISRETAIN
 70
     1
  9
$PLINEGEN
 70
     0
  9
$PSLTSCALE
 70
     1
  9
$TREEDEPTH
 70
  3020
  9
$PICKSTYLE
 70
     1
  9
$CMLSTYLE
  2
STANDARD
  9
$CMLJUST
 70
     0
  9
$CMLSCALE
 40
20.00000000
  9
$PROXYGRAPHICS
 70
     1
  9
$MEASUREMENT
 70
     1
  0
ENDSEC
  0
SECTION
  2
TABLES
  0
TABLE
  2
VPORT
  5
200
100
AcDbSymbolTable
 70
     0
  0
ENDTAB
  0
TABLE
  2
LTYPE
  5
201
100
AcDbSymbolTable
 70
    25
  0
LTYPE
  5
202
100
AcDbSymbolTableRecord
100
AcDbLinetypeTableRecord
  2
BYBLOCK
 70
     0
  3

 72
    65
 73
     0
 40
0.00000000
  0
LTYPE
  5
203
100
AcDbSymbolTableRecord
100
AcDbLinetypeTableRecord
  2
BYLAYER
 70
     0
  3

 72
    65
 73
     0
 40
0.00000000
  0
LTYPE
  5
204
100
AcDbSymbolTableRecord
100
AcDbLinetypeTableRecord
  2
CONTINUOUS
 70
    64
  3
Solid line
 72
    64
 73
     0
 40
0.00000000
  0
LTYPE
  5
205
100
AcDbSymbolTableRecord
100
AcDbLinetypeTableRecord
  2
DASHDOT
 70
    64
  3
__ . __ . __ . __ . __ . __ . __ . __ . __ . __
 72
    65
 73
     4
 40
1.00000000
 49
0.50000000
 74
     0
 49
-0.25000000
 74
     0
 49
0.00000000
 74
     0
 49
-0.25000000
 74
     0
  0
LTYPE
  5
206
100
AcDbSymbolTableRecord
100
AcDbLinetypeTableRecord
  2
DASHED
 70
    64
  3
__ __ __ __ __ __ __ __ __ __ __ __ __ __ __ __
 72
    65
 73
     2
 40
0.75000000
 49
0.50000000
 74
     0
 49
-0.25000000
 74
     0
  0
LTYPE
  5
207
100
AcDbSymbolTableRecord
100
AcDbLinetypeTableRecord
  2
DIVIDE
 70
    64
  3
____ . . ____ . . ____ . . ____ . . ____ . . __
 72
    65
 73
     6
 40
1.25000000
 49
0.50000000
 74
     0
 49
-0.25000000
 74
     0
 49
0.00000000
 74
     0
 49
-0.25000000
 74
     0
 49
0.00000000
 74
     0
 49
-0.25000000
 74
     0
  0
LTYPE
  5
208
100
AcDbSymbolTableRecord
100
AcDbLinetypeTableRecord
  2
DOT
 70
    64
  3
. . . . . . . . . . . . . . . . . . . . . . . . 
 72
    65
 73
     2
 40
0.25000000
 49
0.00000000
 74
     0
 49
-0.25000000
 74
     0
  0
ENDTAB
  0
TABLE
  2
LAYER
  5
209
100
AcDbSymbolTable
 70
     3
  0
LAYER
  5
20a
100
AcDbSymbolTableRecord
100
AcDbLayerTableRecord
  2
0
 70
     0
 62
     7
  6
CONTINUOUS
  0
LAYER
  5
20b
100
AcDbSymbolTableRecord
100
AcDbLayerTableRecord
  2
bottom
 70
     0
 62
     7
  6
CONTINUOUS
  0
LAYER
  5
20c
100
AcDbSymbolTableRecord
100
AcDbLayerTableRecord
  2
top
 70
     0
 62
     7
  6
CONTINUOUS
  0
ENDTAB
  0
TABLE
  2
STYLE
  5
20d
100
AcDbSymbolTable
 70
     1
  0
STYLE
  5
20e
100
AcDbSymbolTableRecord
100
AcDbTextStyleTableRecord
  2
STANDARD
 70
     0
 40
0.00000000
 41
1.00000000
 50
0.00000000
 71
     0
 42
2.50000000
  3
txt
  4

  0
ENDTAB
  0
TABLE
  2
VIEW
  5
20f
100
AcDbSymbolTable
 70
     0
  0
ENDTAB
  0
TABLE
  2
UCS
  5
210
100
AcDbSymbolTable
 70
     0
  0
ENDTAB
  0
TABLE
  2
APPID
  5
211
100
AcDbSymbolTable
 70
     1
  0
APPID
  5
212
100
AcDbSymbolTableRecord
100
AcDbRegAppTableRecord
  2
ACAD
 70
     0
  0
ENDTAB
  0
TABLE
  2
DIMSTYLE
  5
213
100
AcDbSymbolTable
 70
     1
  0
DIMSTYLE
105
214
100
AcDbSymbolTableRecord
100
AcDbDimStyleTableRecord
  2
STANDARD
 70
     1
  3

  4

  5

  6

  7

 40
1.00000000
 41
0.18000000
 42
0.06250000
 43
0.38000000
 44
0.18000000
 45
0.00000000
 46
0.00000000
 47
0.00000000
 48
0.00000000
140
3.04800000
141
1.52400000
142
0.00000000
143
1.00000000
144
1.00000000
145
0.00000000
146
1.00000000
147
1.52400000
 71
     0
 72
     0
 73
     1
 74
     1
 75
     0
 76
     0
 77
     0
 78
     0
170
     0
171
     2
172
     0
173
     0
174
     0
175
     0
176
     0
177
     0
178
     0
  0
ENDTAB
  0
TABLE
  2
BLOCK_RECORD
  5
215
100
AcDbSymbolTable
 70
     2
  0
BLOCK_RECORD
  5
216
100
AcDbSymbolTableRecord
100
AcDbBlockTableRecord
  2
*MODEL_SPACE
  0
BLOCK_RECORD
  5
217
100
AcDbSymbolTableRecord
100
AcDbBlockTableRecord
  2
*PAPER_SPACE
  0
ENDTAB
  0
ENDSEC
  0
SECTION
  2
BLOCKS
  0
BLOCK
  5
218
100
AcDbEntity
  8
0
100
AcDbBlockBegin
  2
*MODEL_SPACE
 70
     0
 10
0.00000000
 20
0.00000000
 30
0.00000000
  3
*MODEL_SPACE
  1

  0
ENDBLK
  5
219
100
AcDbEntity
  8
0
100
AcDbBlockEnd
  0
BLOCK
  5
21a
100
AcDbEntity
 67
     1
  8
0
100
AcDbBlockBegin
  2
*PAPER_SPACE
 70
     0
 10
0.00000000
 20
0.00000000
 30
0.00000000
  3
*PAPER_SPACE
  1

  0
ENDBLK
  5
21b
100
AcDbEntity
 67
     1
  8
0
100
AcDbBlockEnd
  0
ENDSEC
  0
SECTION
  2
ENTITIES
  0
POINT
  5
21c
100
AcDbEntity
  8
0
100
AcDbPoint
 62
   251
 10
10.09716048
 20
-1.33526355
 30
0.00000000
  0
LINE
  5
21d
100
AcDbEntity
  8
bottom
100
AcDbLine
 62
    90
  6
CONTINUOUS
 10
10.10023693
 20
-1.35271093
 30
0.00000000
 11
10.09716048
 21
-1.33526355
 31
0.00000000
  0
LINE
  5
21e
100
AcDbEntity
  8
top
100
AcDbLine
 62
    90
  6
CONTINUOUS
 10
10.09716048
 20
-1.33526355
 30
0.00000000
 11
9.89343827
 21
-1.33858102
 31
0.00000000
  0
LINE
  5
21f
100
AcDbEntity
  8
top
100
AcDbLine
 62
    90
  6
CONTINUOUS
 10
9.89343827
 20
-1.33858102
 30
0.00000000
 11
9.11095245
 21
-1.34651190
 31
0.00000000
  0
ARC
  5
220
100
AcDbEntity
  8
top
100
AcDbCircle
 62
    90
  6
CONTINUOUS
 10
9.11643173
 20
-2.72063336
 30
0.00000000
 40
1.37413239
210
0.00000000
220
0.00000000
230
1.00000000
100
AcDbArc
 50
90.22846405
 51
91.25882144
  0
LINE
  5
221
100
AcDbEntity
  8
top
100
AcDbLine
 62
    90
  6
CONTINUOUS
 10
9.08624367
 20
-1.34683261
 30
0.00000000
 11
7.63236955
 21
-1.37878021
 31
0.00000000
  0
ARC
  5
222
100
AcDbEntity
  8
top
100
AcDbCircle
 62
    90
  6
CONTINUOUS
 10
7.89830475
 20
-13.48098368
 30
0.00000000
 40
12.10512497
210
0.00000000
220
0.00000000
230
1.00000000
100
AcDbArc
 50
91.25882144
 51
98.26507529
  0
LINE
  5
223
100
AcDbEntity
  8
top
100
AcDbLine
 62
    90
  6
CONTINUOUS
 10
6.15815663
 20
-1.50158741
 30
0.00000000
 11
6.15262165
 21
-1.50239143
 31
0.00000000
  0
ARC
  5
224
100
AcDbEntity
  8
top
100
AcDbCircle
 62
    90
  6
CONTINUOUS
 10
7.00101156
 20
-7.34281315
 30
0.00000000
 40
5.90171935
210
0.00000000
220
0.00000000
230
1.00000000
100
AcDbArc
 50
98.26507529
 51
102.99623834
  0
ARC
  5
225
100
AcDbEntity
  8
top
100
AcDbCircle
 62
    90
  6
CONTINUOUS
 10
-5.02177033
 20
1.23279113
 30
0.00000000
 40
2.89932517
210
0.00000000
220
0.00000000
230
-1.00000000
100
AcDbArc
 50
257.00376166
 51
258.80356277
  0
LINE
  5
226
100
AcDbEntity
  8
top
100
AcDbLine
 62
    90
  6
CONTINUOUS
 10
5.58474202
 20
-1.61135185
 30
0.00000000
 11
5.51221962
 21
-1.62570699
 31
0.00000000
  0
ARC
  5
227
100
AcDbEntity
  8
top
100
AcDbCircle
 62
    90
  6
CONTINUOUS
 10
6.01571016
 20
-4.16935017
 30
0.00000000
 40
2.59299505
210
0.00000000
220
0.00000000
230
1.00000000
100
AcDbArc
 50
101.19643723
 51
102.99892369
  0
ARC
  5
228
100
AcDbEntity
  8
top
100
AcDbCircle
 62
    90
  6
CONTINUOUS
 10
5.98790715
 20
-4.04891181
 30
0.00000000
 40
2.46938921
210
0.00000000
220
0.00000000
230
1.00000000
100
AcDbArc
 50
102.99892369
 51
108.30133725
  0
LINE
  5
229
100
AcDbEntity
  8
top
100
AcDbLine
 62
    90
  6
CONTINUOUS
 10
5.21248285
 20
-1.70442888
 30
0.00000000
 11
5.16315737
 21
-1.72074300
 31
0.00000000
  0
ARC
  5
22a
100
AcDbEntity
  8
top
100
AcDbCircle
 62
    90
  6
CONTINUOUS
 10
6.01183090
 20
-4.28669383
 30
0.00000000
 40
2.70265617
210
0.00000000
220
0.00000000
230
1.00000000
100
AcDbArc
 50
108.30133725
 51
118.04132422
  0
ARC
  5
22b
100
AcDbEntity
  8
top
100
AcDbCircle
 62
    90
  6
CONTINUOUS
 10
5.28808495
 20
-2.92789082
 30
0.00000000
 40
1.16312579
210
0.00000000
220
0.00000000
230
1.00000000
100
AcDbArc
 50
118.04132422
 51
128.25034866
  0
LINE
  5
22c
100
AcDbEntity
  8
top
100
AcDbLine
 62
    90
  6
CONTINUOUS
 10
4.56799525
 20
-2.01447283
 30
0.00000000
 11
4.49181644
 21
-2.07452812
 31
0.00000000
  0
ARC
  5
22d
100
AcDbEntity
  8
top
100
AcDbCircle
 62
    90
  6
CONTINUOUS
 10
5.02223078
 20
-2.74734707
 30
0.00000000
 40
0.85675243
210
0.00000000
220
0.00000000
230
1.00000000
100
AcDbArc
 50
128.25034866
 51
140.92705039
  0
LINE
  5
22e
100
AcDbEntity
  8
top
100
AcDbLine
 62
    90
  6
CONTINUOUS
 10
4.35709611
 20
-2.20732800
 30
0.00000000
 11
4.30442580
 21
-2.27220137
 31
0.00000000
  0
ARC
  5
22f
100
AcDbEntity
  8
top
100
AcDbCircle
 62
    90
  6
CONTINUOUS
 10
4.43087491
 20
-2.37486470
 30
0.00000000
 40
0.16287768
210
0.00000000
220
0.00000000
230
1.00000000
100
AcDbArc
 50
140.92705039
 51
154.93599661
  0
LINE
  5
230
100
AcDbEntity
  8
top
100
AcDbLine
 62
    90
  6
CONTINUOUS
 10
4.28333459
 20
-2.30586476
 30
0.00000000
 11
4.28076293
 21
-2.31136366
 31
0.00000000
  0
ARC
  5
231
100
AcDbEntity
  8
top
100
AcDbCircle
 62
    90
  6
CONTINUOUS
 10
4.32063288
 20
-2.33000957
 30
0.00000000
 40
0.04401458
210
0.00000000
220
0.00000000
230
1.00000000
100
AcDbArc
 50
154.93599661
 51
187.26316718
  0
ARC
  5
232
100
AcDbEntity
  8
bottom
100
AcDbCircle
 62
    90
  6
CONTINUOUS
 10
4.29770540
 20
-2.33293167
 30
0.00000000
 40
0.02090163
210
0.00000000
220
0.00000000
230
1.00000000
100
AcDbArc
 50
187.26316718
 51
250.95048886
  0
LINE
  5
233
100
AcDbEntity
  8
bottom
100
AcDbLine
 62
    90
  6
CONTINUOUS
 10
4.29088342
 20
-2.35268866
 30
0.00000000
 11
4.29840464
 21
-2.35528570
 31
0.00000000
  0
ARC
  5
234
100
AcDbEntity
  8
bottom
100
AcDbCircle
 62
    90
  6
CONTINUOUS
 10
4.35840673
 20
-2.18151494
 30
0.00000000
 40
0.18383832
210
0.00000000
220
0.00000000
230
1.00000000
100
AcDbArc
 50
250.95048886
 51
268.24193299
  0
LINE
  5
235
100
AcDbEntity
  8
bottom
100
AcDbLine
 62
    90
  6
CONTINUOUS
 10
4.35276671
 20
-2.36526672
 30
0.00000000
 11
4.35897747
 21
-2.36545735
 31
0.00000000
  0
ARC
  5
236
100
AcDbEntity
  8
bottom
100
AcDbCircle
 62
    90
  6
CONTINUOUS
 10
4.36241090
 20
-2.25359626
 30
0.00000000
 40
0.11191378
210
0.00000000
220
0.00000000
230
1.00000000
100
AcDbArc
 50
268.24193299
 51
291.68708453
  0
LINE
  5
237
100
AcDbEntity
  8
bottom
100
AcDbLine
 62
    90
  6
CONTINUOUS
 10
4.40376722
 20
-2.35758832
 30
0.00000000
 11
4.47600737
 21
-2.32885933
 31
0.00000000
  0
LINE
  5
238
100
AcDbEntity
  8
bottom
100
AcDbLine
 62
    90
  6
CONTINUOUS
 10
4.47600737
 20
-2.32885933
 30
0.00000000
 11
4.54757083
 21
-2.30039946
 31
0.00000000
  0
ARC
  5
239
100
AcDbEntity
  8
bottom
100
AcDbCircle
 62
    90
  6
CONTINUOUS
 10
-4.99946195
 20
-3.43669724
 30
0.00000000
 40
1.22285658
210
0.00000000
220
0.00000000
230
-1.00000000
100
AcDbArc
 50
68.31291547
 51
70.48081586
  0
ARC
  5
23a
100
AcDbEntity
  8
bottom
100
AcDbCircle
 62
    90
  6
CONTINUOUS
 10
-11.16608835
 20
-20.83220043
 30
0.00000000
 40
19.67904288
210
0.00000000
220
0.00000000
230
-1.00000000
100
AcDbArc
 50
70.48081586
 51
70.95439580
  0
LINE
  5
23b
100
AcDbEntity
  8
bottom
100
AcDbLine
 62
    90
  6
CONTINUOUS
 10
4.74441067
 20
-2.23040523
 30
0.00000000
 11
5.05680495
 21
-2.12256106
 31
0.00000000
  0
LINE
  5
23c
100
AcDbEntity
  8
bottom
100
AcDbLine
 62
    90
  6
CONTINUOUS
 10
5.05680495
 20
-2.12256106
 30
0.00000000
 11
5.13404123
 21
-2.09589768
 31
0.00000000
  0
ARC
  5
23d
100
AcDbEntity
  8
bottom
100
AcDbCircle
 62
    90
  6
CONTINUOUS
 10
-6.34609713
 20
-5.60688295
 30
0.00000000
 40
3.71430976
210
0.00000000
220
0.00000000
230
-1.00000000
100
AcDbArc
 50
70.95439580
 51
77.30201769
  0
LINE
  5
23e
100
AcDbEntity
  8
bottom
100
AcDbLine
 62
    90
  6
CONTINUOUS
 10
5.52964782
 20
-1.98341672
 30
0.00000000
 11
5.96407433
 21
-1.88553055
 31
0.00000000
  0
ARC
  5
23f
100
AcDbEntity
  8
bottom
100
AcDbCircle
 62
    90
  6
CONTINUOUS
 10
-6.57859382
 20
-4.61281641
 30
0.00000000
 40
2.79566135
210
0.00000000
220
0.00000000
230
-1.00000000
100
AcDbArc
 50
77.30201769
 51
78.28193037
  0
LINE
  5
240
100
AcDbEntity
  8
bottom
100
AcDbLine
 62
    90
  6
CONTINUOUS
 10
6.01080589
 20
-1.87541997
 30
0.00000000
 11
6.02724070
 21
-1.87204235
 31
0.00000000
  0
ARC
  5
241
100
AcDbEntity
  8
bottom
100
AcDbCircle
 62
    90
  6
CONTINUOUS
 10
-10.13754559
 20
-21.74644512
 30
0.00000000
 40
20.29498687
210
0.00000000
220
0.00000000
230
-1.00000000
100
AcDbArc
 50
78.31516616
 51
83.59129420
  0
LINE
  5
242
100
AcDbEntity
  8
bottom
100
AcDbLine
 62
    90
  6
CONTINUOUS
 10
7.87222061
 20
-1.57828222
 30
0.00000000
 11
8.05642384
 21
-1.55759218
 31
0.00000000
  0
LINE
  5
243
100
AcDbEntity
  8
bottom
100
AcDbLine
 62
    90
  6
CONTINUOUS
 10
8.05642384
 20
-1.55759218
 30
0.00000000
 11
8.31837457
 21
-1.52816939
 31
0.00000000
  0
LINE
  5
244
100
AcDbEntity
  8
bottom
100
AcDbLine
 62
    90
  6
CONTINUOUS
 10
8.31837457
 20
-1.52816939
 30
0.00000000
 11
8.91232869
 21
-1.46968324
 31
0.00000000
  0
LINE
  5
245
100
AcDbEntity
  8
bottom
100
AcDbLine
 62
    90
  6
CONTINUOUS
 10
8.91232869
 20
-1.46968324
 30
0.00000000
 11
9.50628281
 21
-1.41119709
 31
0.00000000
  0
LINE
  5
246
100
AcDbEntity
  8
bottom
100
AcDbLine
 62
    90
  6
CONTINUOUS
 10
9.50628281
 20
-1.41119709
 30
0.00000000
 11
9.70426751
 21
-1.39170171
 31
0.00000000
  0
LINE
  5
247
100
AcDbEntity
  8
bottom
100
AcDbLine
 62
    90
  6
CONTINUOUS
 10
9.70426751
 20
-1.39170171
 30
0.00000000
 11
9.90225222
 21
-1.37220632
 31
0.00000000
  0
LINE
  5
248
100
AcDbEntity
  8
bottom
100
AcDbLine
 62
    90
  6
CONTINUOUS
 10
9.90225222
 20
-1.37220632
 30
0.00000000
 11
10.10023693
 21
-1.35271093
 31
0.00000000
  0
ENDSEC
  0
SECTION
  2
OBJECTS
  0
DICTIONARY
  5
c
100
AcDbDictionary
  3
ACAD_GROUP
350
d
  3
ACAD_MLINESTYLE
350
1b
  0
DICTIONARY
  5
d
102
{ACAD_REACTORS
330
c
102
}
100
AcDbDictionary
  0
DICTIONARY
  5
1b
102
{ACAD_REACTORS
330
c
102
}
100
AcDbDictionary
  3
STANDARD
350
1c
  0
MLINESTYLE
  5
1c
102
{ACAD_REACTORS
330
1b
102
}
100
AcDbMlineStyle
  2
STANDARD
 70
     0
  3

 62
   256
 51
90.00000000
 52
90.00000000
 71
     2
 49
0.50000000
 62
   256
  6
BYLAYER
 49
-0.50000000
 62
   256
  6
BYLAYER
  0
ENDSEC
  0
EOF
